ISO-10303-21;
HEADER;
FILE_DESCRIPTION (( 'STEP AP203' ),
    '1' );
FILE_NAME ('WOLF, SINGLE POLE.STEP',
    '2019-03-28T17:35:54',
    ( '' ),
    ( '' ),
    'SwSTEP 2.0',
    'SolidWorks 2017',
    '' );
FILE_SCHEMA (( 'CONFIG_CONTROL_DESIGN' ));
ENDSEC;

DATA;
#1 = VERTEX_POINT ( 'NONE', #212 ) ;
#2 = AXIS2_PLACEMENT_3D ( 'NONE', #216, #286, #177 ) ;
#3 = FACE_OUTER_BOUND ( 'NONE', #149, .T. ) ;
#4 = APPROVAL_STATUS ( 'not_yet_approved' ) ;
#5 = AXIS2_PLACEMENT_3D ( 'NONE', #134, #295, #30 ) ;
#6 = APPROVAL_PERSON_ORGANIZATION ( #62, #278, #15 ) ;
#7 = PERSON_AND_ORGANIZATION ( #127, #43 ) ;
#8 = ORIENTED_EDGE ( 'NONE', *, *, #215, .T. ) ;
#9 = DIRECTION ( 'NONE',  ( -1.000000000000000000, 0.0000000000000000000, 0.0000000000000000000 ) ) ;
#10 = ORIENTED_EDGE ( 'NONE', *, *, #254, .T. ) ;
#11 = ADVANCED_FACE ( 'NONE', ( #98, #281 ), #96, .T. ) ;
#12 = CARTESIAN_POINT ( 'NONE',  ( 0.0000000000000000000, 0.0000000000000000000, 0.0000000000000000000 ) ) ;
#13 = EDGE_CURVE ( 'NONE', #1, #1, #21, .T. ) ;
#14 = CARTESIAN_POINT ( 'NONE',  ( 0.0000000000000000000, 0.0000000000000000000, -6.699999999999999300 ) ) ;
#15 = APPROVAL_ROLE ( '' ) ;
#16 = DIRECTION ( 'NONE',  ( -0.0000000000000000000, -0.0000000000000000000, -1.000000000000000000 ) ) ;
#17 = AXIS2_PLACEMENT_3D ( 'NONE', #109, #162, #80 ) ;
#18 = ORIENTED_EDGE ( 'NONE', *, *, #132, .F. ) ;
#19 = CARTESIAN_POINT ( 'NONE',  ( 0.0000000000000000000, 4.450000000000000200, -6.699999999999999300 ) ) ;
#20 = CIRCLE ( 'NONE', #290, 5.850000000000001400 ) ;
#21 = CIRCLE ( 'NONE', #5, 4.450000000000000200 ) ;
#22 = ORIENTED_EDGE ( 'NONE', *, *, #262, .T. ) ;
#23 = EDGE_LOOP ( 'NONE', ( #218 ) ) ;
#24 = AXIS2_PLACEMENT_3D ( 'NONE', #217, #106, #249 ) ;
#25 = DIRECTION ( 'NONE',  ( -1.000000000000000000, 0.0000000000000000000, 0.0000000000000000000 ) ) ;
#26 = FACE_OUTER_BOUND ( 'NONE', #124, .T. ) ;
#27 = AXIS2_PLACEMENT_3D ( 'NONE', #228, #99, #161 ) ;
#28 = LOCAL_TIME ( 13, 35, 54.00000000000000000, #192 ) ;
#29 = VERTEX_POINT ( 'NONE', #113 ) ;
#30 = DIRECTION ( 'NONE',  ( -1.000000000000000000, 0.0000000000000000000, 0.0000000000000000000 ) ) ;
#31 = APPROVAL ( #153, 'UNSPECIFIED' ) ;
#32 = AXIS2_PLACEMENT_3D ( 'NONE', #14, #259, #90 ) ;
#33 = ORIENTED_EDGE ( 'NONE', *, *, #242, .F. ) ;
#34 = APPROVAL_PERSON_ORGANIZATION ( #151, #31, #121 ) ;
#35 = VERTEX_POINT ( 'NONE', #282 ) ;
#36 = ORIENTED_EDGE ( 'NONE', *, *, #132, .T. ) ;
#37 = AXIS2_PLACEMENT_3D ( 'NONE', #248, #159, #135 ) ;
#38 = EDGE_CURVE ( 'NONE', #253, #253, #158, .T. ) ;
#39 = ORIENTED_EDGE ( 'NONE', *, *, #13, .F. ) ;
#40 = FACE_OUTER_BOUND ( 'NONE', #87, .T. ) ;
#41 = CC_DESIGN_PERSON_AND_ORGANIZATION_ASSIGNMENT ( #173, #61, ( #168 ) ) ;
#42 = SECURITY_CLASSIFICATION ( '', '', #102 ) ;
#43 = ORGANIZATION ( 'UNSPECIFIED', 'UNSPECIFIED', '' ) ;
#44 = COORDINATED_UNIVERSAL_TIME_OFFSET ( 5, 0, .BEHIND. ) ;
#45 = EDGE_LOOP ( 'NONE', ( #103 ) ) ;
#46 = CC_DESIGN_DATE_AND_TIME_ASSIGNMENT ( #107, #150, ( #42 ) ) ;
#47 = CC_DESIGN_SECURITY_CLASSIFICATION ( #42, ( #168 ) ) ;
#48 = CYLINDRICAL_SURFACE ( 'NONE', #129, 5.850000000000001400 ) ;
#49 = PRODUCT_DEFINITION_SHAPE ( 'NONE', 'NONE',  #190 ) ;
#50 = CIRCLE ( 'NONE', #17, 5.850000000000000500 ) ;
#51 = DIRECTION ( 'NONE',  ( -0.0000000000000000000, -0.0000000000000000000, -1.000000000000000000 ) ) ;
#52 = PLANE ( 'NONE',  #174 ) ;
#53 = PERSON_AND_ORGANIZATION_ROLE ( 'creator' ) ;
#54 = CIRCLE ( 'NONE', #88, 4.450000000000000200 ) ;
#55 = CC_DESIGN_APPROVAL ( #31, ( #168 ) ) ;
#56 = CARTESIAN_POINT ( 'NONE',  ( 0.0000000000000000000, 0.0000000000000000000, -1.000000000000000000 ) ) ;
#57 = AXIS2_PLACEMENT_3D ( 'NONE', #77, #230, #145 ) ;
#58 = DIRECTION ( 'NONE',  ( -1.000000000000000000, 0.0000000000000000000, 0.0000000000000000000 ) ) ;
#59 = CC_DESIGN_PERSON_AND_ORGANIZATION_ASSIGNMENT ( #160, #258, ( #190 ) ) ;
#60 = EDGE_LOOP ( 'NONE', ( #18 ) ) ;
#61 = PERSON_AND_ORGANIZATION_ROLE ( 'design_supplier' ) ;
#62 = PERSON_AND_ORGANIZATION ( #127, #43 ) ;
#63 = COORDINATED_UNIVERSAL_TIME_OFFSET ( 5, 0, .BEHIND. ) ;
#64 = EDGE_LOOP ( 'NONE', ( #36 ) ) ;
#65 = EDGE_LOOP ( 'NONE', ( #199 ) ) ;
#66 = APPROVAL_DATE_TIME ( #111, #278 ) ;
#67 = EDGE_LOOP ( 'NONE', ( #211 ) ) ;
#68 = CARTESIAN_POINT ( 'NONE',  ( 0.0000000000000000000, 0.0000000000000000000, -7.799999999999999800 ) ) ;
#69 = EDGE_LOOP ( 'NONE', ( #201 ) ) ;
#70 = ORIENTED_EDGE ( 'NONE', *, *, #242, .T. ) ;
#71 = CARTESIAN_POINT ( 'NONE',  ( 0.0000000000000000000, 0.0000000000000000000, -1.000000000000000000 ) ) ;
#72 = DIRECTION ( 'NONE',  ( -1.000000000000000000, 0.0000000000000000000, 0.0000000000000000000 ) ) ;
#73 = CARTESIAN_POINT ( 'NONE',  ( 0.0000000000000000000, 0.0000000000000000000, 2.250787286335125200E-018 ) ) ;
#74 = CYLINDRICAL_SURFACE ( 'NONE', #57, 4.450000000000000200 ) ;
#75 = ORIENTED_EDGE ( 'NONE', *, *, #38, .F. ) ;
#76 = ORIENTED_EDGE ( 'NONE', *, *, #229, .F. ) ;
#77 = CARTESIAN_POINT ( 'NONE',  ( 0.0000000000000000000, 0.0000000000000000000, 0.0000000000000000000 ) ) ;
#78 = CARTESIAN_POINT ( 'NONE',  ( -4.182050807568876000, 0.0000000000000000000, 4.501574572670250300E-018 ) ) ;
#79 = FACE_BOUND ( 'NONE', #65, .T. ) ;
#80 = DIRECTION ( 'NONE',  ( -1.000000000000000000, 0.0000000000000000000, 0.0000000000000000000 ) ) ;
#81 = ADVANCED_BREP_SHAPE_REPRESENTATION ( 'WOLF, SINGLE POLE', ( #117, #27 ), #186 ) ;
#82 = CALENDAR_DATE ( 2019, 28, 3 ) ;
#83 = VERTEX_POINT ( 'NONE', #110 ) ;
#84 = CARTESIAN_POINT ( 'NONE',  ( 0.0000000000000000000, 0.0000000000000000000, 0.0000000000000000000 ) ) ;
#85 = DIRECTION ( 'NONE',  ( 0.0000000000000000000, 0.0000000000000000000, 1.000000000000000000 ) ) ;
#86 = FACE_OUTER_BOUND ( 'NONE', #64, .T. ) ;
#87 = EDGE_LOOP ( 'NONE', ( #280 ) ) ;
#88 = AXIS2_PLACEMENT_3D ( 'NONE', #234, #120, #203 ) ;
#89 = PLANE ( 'NONE',  #24 ) ;
#90 = DIRECTION ( 'NONE',  ( -1.000000000000000000, 0.0000000000000000000, 0.0000000000000000000 ) ) ;
#91 = EDGE_CURVE ( 'NONE', #227, #227, #20, .T. ) ;
#92 = CC_DESIGN_DATE_AND_TIME_ASSIGNMENT ( #292, #138, ( #190 ) ) ;
#93 = ADVANCED_FACE ( 'NONE', ( #94 ), #288, .T. ) ;
#94 = FACE_OUTER_BOUND ( 'NONE', #130, .T. ) ;
#95 = ORIENTED_EDGE ( 'NONE', *, *, #262, .F. ) ;
#96 = CYLINDRICAL_SURFACE ( 'NONE', #142, 3.750000000000000900 ) ;
#97 = PRODUCT ( 'WOLF, SINGLE POLE', 'WOLF, SINGLE POLE', '', ( #210 ) ) ;
#98 = FACE_OUTER_BOUND ( 'NONE', #163, .T. ) ;
#99 = DIRECTION ( 'NONE',  ( 0.0000000000000000000, 0.0000000000000000000, 1.000000000000000000 ) ) ;
#100 = FACE_OUTER_BOUND ( 'NONE', #67, .T. ) ;
#101 = CARTESIAN_POINT ( 'NONE',  ( 0.0000000000000000000, 0.0000000000000000000, -21.10999999999999900 ) ) ;
#102 = SECURITY_CLASSIFICATION_LEVEL ( 'unclassified' ) ;
#103 = ORIENTED_EDGE ( 'NONE', *, *, #225, .T. ) ;
#104 = APPLICATION_CONTEXT ( 'configuration controlled 3d designs of mechanical parts and assemblies' ) ;
#105 = DIRECTION ( 'NONE',  ( -0.0000000000000000000, 0.0000000000000000000, -1.000000000000000000 ) ) ;
#106 = DIRECTION ( 'NONE',  ( 0.0000000000000000000, 0.0000000000000000000, 1.000000000000000000 ) ) ;
#107 = DATE_AND_TIME ( #136, #181 ) ;
#108 = FACE_OUTER_BOUND ( 'NONE', #185, .T. ) ;
#109 = CARTESIAN_POINT ( 'NONE',  ( 0.0000000000000000000, 0.0000000000000000000, -10.94999999999999900 ) ) ;
#110 = CARTESIAN_POINT ( 'NONE',  ( -4.450000000000000200, 0.0000000000000000000, -1.000000000000000000 ) ) ;
#111 = DATE_AND_TIME ( #279, #240 ) ;
#112 = AXIS2_PLACEMENT_3D ( 'NONE', #19, #105, #9 ) ;
#113 = CARTESIAN_POINT ( 'NONE',  ( -3.750000000000000900, 0.0000000000000000000, -6.699999999999999300 ) ) ;
#114 = PERSON_AND_ORGANIZATION ( #127, #43 ) ;
#115 = FACE_OUTER_BOUND ( 'NONE', #140, .T. ) ;
#116 = ADVANCED_FACE ( 'NONE', ( #79, #108 ), #52, .T. ) ;
#117 = MANIFOLD_SOLID_BREP ( 'Split Line1', #226 ) ;
#118 = DIRECTION ( 'NONE',  ( -1.000000000000000000, 0.0000000000000000000, 0.0000000000000000000 ) ) ;
#119 = CIRCLE ( 'NONE', #164, 5.850000000000001400 ) ;
#120 = DIRECTION ( 'NONE',  ( -0.0000000000000000000, -0.0000000000000000000, -1.000000000000000000 ) ) ;
#121 = APPROVAL_ROLE ( '' ) ;
#122 = CARTESIAN_POINT ( 'NONE',  ( -4.450000000000000200, 0.0000000000000000000, -6.699999999999999300 ) ) ;
#123 = DIRECTION ( 'NONE',  ( 1.000000000000000000, 0.0000000000000000000, -0.0000000000000000000 ) ) ;
#124 = EDGE_LOOP ( 'NONE', ( #22 ) ) ;
#125 = ADVANCED_FACE ( 'NONE', ( #26 ), #156, .T. ) ;
#126 = FACE_BOUND ( 'NONE', #264, .T. ) ;
#127 = PERSON ( 'UNSPECIFIED', 'UNSPECIFIED', 'UNSPECIFIED', ('UNSPECIFIED'), ('UNSPECIFIED'), ('UNSPECIFIED') ) ;
#128 = AXIS2_PLACEMENT_3D ( 'NONE', #71, #243, #118 ) ;
#129 = AXIS2_PLACEMENT_3D ( 'NONE', #291, #193, #271 ) ;
#130 = EDGE_LOOP ( 'NONE', ( #276 ) ) ;
#131 = CYLINDRICAL_SURFACE ( 'NONE', #37, 5.850000000000001400 ) ;
#132 = EDGE_CURVE ( 'NONE', #206, #206, #54, .T. ) ;
#133 = APPROVAL ( #220, 'UNSPECIFIED' ) ;
#134 = CARTESIAN_POINT ( 'NONE',  ( 0.0000000000000000000, 0.0000000000000000000, -7.799999999999999800 ) ) ;
#135 = DIRECTION ( 'NONE',  ( -1.000000000000000000, 0.0000000000000000000, 0.0000000000000000000 ) ) ;
#136 = CALENDAR_DATE ( 2019, 28, 3 ) ;
#137 = ADVANCED_FACE ( 'NONE', ( #126, #200 ), #169, .T. ) ;
#138 = DATE_TIME_ROLE ( 'creation_date' ) ;
#139 = VERTEX_POINT ( 'NONE', #78 ) ;
#140 = EDGE_LOOP ( 'NONE', ( #95 ) ) ;
#141 = EDGE_LOOP ( 'NONE', ( #75 ) ) ;
#142 = AXIS2_PLACEMENT_3D ( 'NONE', #12, #250, #152 ) ;
#143 = CIRCLE ( 'NONE', #238, 4.182050807568876000 ) ;
#144 = AXIS2_PLACEMENT_3D ( 'NONE', #68, #241, #72 ) ;
#145 = DIRECTION ( 'NONE',  ( -1.000000000000000000, 0.0000000000000000000, 0.0000000000000000000 ) ) ;
#146 = CARTESIAN_POINT ( 'NONE',  ( 0.0000000000000000000, 0.0000000000000000000, -127.0000000000000000 ) ) ;
#147 = FACE_OUTER_BOUND ( 'NONE', #141, .T. ) ;
#148 = DIRECTION ( 'NONE',  ( 0.0000000000000000000, 1.000000000000000000, 0.0000000000000000000 ) ) ;
#149 = EDGE_LOOP ( 'NONE', ( #39 ) ) ;
#150 = DATE_TIME_ROLE ( 'classification_date' ) ;
#151 = PERSON_AND_ORGANIZATION ( #127, #43 ) ;
#152 = DIRECTION ( 'NONE',  ( -1.000000000000000000, 0.0000000000000000000, 0.0000000000000000000 ) ) ;
#153 = APPROVAL_STATUS ( 'not_yet_approved' ) ;
#154 = COORDINATED_UNIVERSAL_TIME_OFFSET ( 5, 0, .BEHIND. ) ;
#155 = CC_DESIGN_PERSON_AND_ORGANIZATION_ASSIGNMENT ( #7, #178, ( #42 ) ) ;
#156 = PLANE ( 'NONE',  #265 ) ;
#157 =( NAMED_UNIT ( * ) PLANE_ANGLE_UNIT ( ) SI_UNIT ( $, .RADIAN. ) );
#158 = CIRCLE ( 'NONE', #2, 4.450000000000000200 ) ;
#159 = DIRECTION ( 'NONE',  ( -0.0000000000000000000, -0.0000000000000000000, -1.000000000000000000 ) ) ;
#160 = PERSON_AND_ORGANIZATION ( #127, #43 ) ;
#161 = DIRECTION ( 'NONE',  ( 1.000000000000000000, 0.0000000000000000000, 0.0000000000000000000 ) ) ;
#162 = DIRECTION ( 'NONE',  ( -0.0000000000000000000, -0.0000000000000000000, -1.000000000000000000 ) ) ;
#163 = EDGE_LOOP ( 'NONE', ( #70 ) ) ;
#164 = AXIS2_PLACEMENT_3D ( 'NONE', #146, #51, #255 ) ;
#165 = EDGE_LOOP ( 'NONE', ( #209 ) ) ;
#166 = EDGE_LOOP ( 'NONE', ( #33 ) ) ;
#167 = AXIS2_PLACEMENT_3D ( 'NONE', #73, #272, #289 ) ;
#168 = PRODUCT_DEFINITION_FORMATION_WITH_SPECIFIED_SOURCE ( 'ANY', '', #97, .NOT_KNOWN. ) ;
#169 = CONICAL_SURFACE ( 'NONE', #128, 4.450000000000000200, 0.2617993877991505700 ) ;
#170 =( NAMED_UNIT ( * ) SI_UNIT ( $, .STERADIAN. ) SOLID_ANGLE_UNIT ( ) );
#171 = CC_DESIGN_PERSON_AND_ORGANIZATION_ASSIGNMENT ( #114, #53, ( #168 ) ) ;
#172 = FACE_OUTER_BOUND ( 'NONE', #165, .T. ) ;
#173 = PERSON_AND_ORGANIZATION ( #127, #43 ) ;
#174 = AXIS2_PLACEMENT_3D ( 'NONE', #293, #85, #123 ) ;
#175 = APPROVAL_DATE_TIME ( #270, #133 ) ;
#176 = PERSON_AND_ORGANIZATION_ROLE ( 'design_owner' ) ;
#177 = DIRECTION ( 'NONE',  ( -1.000000000000000000, 0.0000000000000000000, 0.0000000000000000000 ) ) ;
#178 = PERSON_AND_ORGANIZATION_ROLE ( 'classification_officer' ) ;
#179 = EDGE_LOOP ( 'NONE', ( #10 ) ) ;
#180 = AXIS2_PLACEMENT_3D ( 'NONE', #84, #196, #58 ) ;
#181 = LOCAL_TIME ( 13, 35, 54.00000000000000000, #188 ) ;
#182 = PERSON_AND_ORGANIZATION ( #127, #43 ) ;
#183 = APPLICATION_CONTEXT ( 'configuration controlled 3d designs of mechanical parts and assemblies' ) ;
#184 = CYLINDRICAL_SURFACE ( 'NONE', #180, 4.450000000000000200 ) ;
#185 = EDGE_LOOP ( 'NONE', ( #76 ) ) ;
#186 =( GEOMETRIC_REPRESENTATION_CONTEXT ( 3 ) GLOBAL_UNCERTAINTY_ASSIGNED_CONTEXT ( ( #191 ) ) GLOBAL_UNIT_ASSIGNED_CONTEXT ( ( #263, #157, #170 ) ) REPRESENTATION_CONTEXT ( 'NONE', 'WORKASPACE' ) );
#187 = SHAPE_DEFINITION_REPRESENTATION ( #49, #81 ) ;
#188 = COORDINATED_UNIVERSAL_TIME_OFFSET ( 5, 0, .BEHIND. ) ;
#189 = DATE_AND_TIME ( #232, #214 ) ;
#190 = PRODUCT_DEFINITION ( 'UNKNOWN', '', #168, #244 ) ;
#191 = UNCERTAINTY_MEASURE_WITH_UNIT (LENGTH_MEASURE( 1.000000000000000100E-005 ), #263, 'distance_accuracy_value', 'NONE');
#192 = COORDINATED_UNIVERSAL_TIME_OFFSET ( 5, 0, .BEHIND. ) ;
#193 = DIRECTION ( 'NONE',  ( -0.0000000000000000000, -0.0000000000000000000, -1.000000000000000000 ) ) ;
#194 = PLANE ( 'NONE',  #112 ) ;
#195 = DIRECTION ( 'NONE',  ( -0.0000000000000000000, -1.161179108781819300E-016, 1.000000000000000000 ) ) ;
#196 = DIRECTION ( 'NONE',  ( -0.0000000000000000000, -0.0000000000000000000, -1.000000000000000000 ) ) ;
#197 = DIRECTION ( 'NONE',  ( -0.0000000000000000000, -0.0000000000000000000, -1.000000000000000000 ) ) ;
#198 = CC_DESIGN_APPROVAL ( #278, ( #190 ) ) ;
#199 = ORIENTED_EDGE ( 'NONE', *, *, #38, .T. ) ;
#200 = FACE_OUTER_BOUND ( 'NONE', #23, .T. ) ;
#201 = ORIENTED_EDGE ( 'NONE', *, *, #229, .T. ) ;
#202 = CALENDAR_DATE ( 2019, 28, 3 ) ;
#203 = DIRECTION ( 'NONE',  ( -1.000000000000000000, 0.0000000000000000000, 0.0000000000000000000 ) ) ;
#204 = APPROVAL_ROLE ( '' ) ;
#205 = APPROVAL_PERSON_ORGANIZATION ( #274, #133, #204 ) ;
#206 = VERTEX_POINT ( 'NONE', #122 ) ;
#207 = APPROVAL_DATE_TIME ( #189, #31 ) ;
#208 = CC_DESIGN_PERSON_AND_ORGANIZATION_ASSIGNMENT ( #182, #176, ( #97 ) ) ;
#209 = ORIENTED_EDGE ( 'NONE', *, *, #91, .F. ) ;
#210 = MECHANICAL_CONTEXT ( 'NONE', #104, 'mechanical' ) ;
#211 = ORIENTED_EDGE ( 'NONE', *, *, #91, .T. ) ;
#212 = CARTESIAN_POINT ( 'NONE',  ( -4.450000000000000200, 0.0000000000000000000, -7.799999999999999800 ) ) ;
#213 = APPLICATION_PROTOCOL_DEFINITION ( 'international standard', 'config_control_design', 1994, #104 ) ;
#214 = LOCAL_TIME ( 13, 35, 54.00000000000000000, #63 ) ;
#215 = EDGE_CURVE ( 'NONE', #139, #139, #143, .T. ) ;
#216 = CARTESIAN_POINT ( 'NONE',  ( 0.0000000000000000000, 0.0000000000000000000, -10.94999999999999900 ) ) ;
#217 = CARTESIAN_POINT ( 'NONE',  ( 0.0000000000000000000, 3.750000000000000900, -7.799999999999999800 ) ) ;
#218 = ORIENTED_EDGE ( 'NONE', *, *, #225, .F. ) ;
#219 = CIRCLE ( 'NONE', #144, 3.750000000000000900 ) ;
#220 = APPROVAL_STATUS ( 'not_yet_approved' ) ;
#221 = DIRECTION ( 'NONE',  ( -1.000000000000000000, 0.0000000000000000000, 0.0000000000000000000 ) ) ;
#222 = CARTESIAN_POINT ( 'NONE',  ( 0.0000000000000000000, 0.0000000000000000000, 4.501574572670250300E-018 ) ) ;
#223 = VERTEX_POINT ( 'NONE', #247 ) ;
#224 = FACE_BOUND ( 'NONE', #179, .T. ) ;
#225 = EDGE_CURVE ( 'NONE', #83, #83, #235, .T. ) ;
#226 = CLOSED_SHELL ( 'NONE', ( #237, #93, #137, #266, #287, #11, #283, #251, #116, #277, #125 ) ) ;
#227 = VERTEX_POINT ( 'NONE', #261 ) ;
#228 = CARTESIAN_POINT ( 'NONE',  ( 0.0000000000000000000, 0.0000000000000000000, 0.0000000000000000000 ) ) ;
#229 = EDGE_CURVE ( 'NONE', #223, #223, #50, .T. ) ;
#230 = DIRECTION ( 'NONE',  ( -0.0000000000000000000, -0.0000000000000000000, -1.000000000000000000 ) ) ;
#231 = CARTESIAN_POINT ( 'NONE',  ( 0.0000000000000000000, 5.850000000000001400, -127.0000000000000000 ) ) ;
#232 = CALENDAR_DATE ( 2019, 28, 3 ) ;
#233 = APPLICATION_PROTOCOL_DEFINITION ( 'international standard', 'config_control_design', 1994, #183 ) ;
#234 = CARTESIAN_POINT ( 'NONE',  ( 0.0000000000000000000, 0.0000000000000000000, -6.699999999999999300 ) ) ;
#235 = CIRCLE ( 'NONE', #252, 4.450000000000000200 ) ;
#236 = PRODUCT_RELATED_PRODUCT_CATEGORY ( 'detail', '', ( #97 ) ) ;
#237 = ADVANCED_FACE ( 'NONE', ( #285, #100 ), #131, .T. ) ;
#238 = AXIS2_PLACEMENT_3D ( 'NONE', #222, #197, #294 ) ;
#239 = EDGE_LOOP ( 'NONE', ( #284 ) ) ;
#240 = LOCAL_TIME ( 13, 35, 54.00000000000000000, #154 ) ;
#241 = DIRECTION ( 'NONE',  ( -0.0000000000000000000, -0.0000000000000000000, -1.000000000000000000 ) ) ;
#242 = EDGE_CURVE ( 'NONE', #29, #29, #260, .T. ) ;
#243 = DIRECTION ( 'NONE',  ( -0.0000000000000000000, -0.0000000000000000000, -1.000000000000000000 ) ) ;
#244 = DESIGN_CONTEXT ( 'detailed design', #183, 'design' ) ;
#245 = DIRECTION ( 'NONE',  ( -0.0000000000000000000, 0.0000000000000000000, -1.000000000000000000 ) ) ;
#246 = FACE_BOUND ( 'NONE', #166, .T. ) ;
#247 = CARTESIAN_POINT ( 'NONE',  ( -5.850000000000000500, 0.0000000000000000000, -10.94999999999999900 ) ) ;
#248 = CARTESIAN_POINT ( 'NONE',  ( 0.0000000000000000000, 0.0000000000000000000, 0.0000000000000000000 ) ) ;
#249 = DIRECTION ( 'NONE',  ( 1.000000000000000000, 0.0000000000000000000, -0.0000000000000000000 ) ) ;
#250 = DIRECTION ( 'NONE',  ( -0.0000000000000000000, -0.0000000000000000000, -1.000000000000000000 ) ) ;
#251 = ADVANCED_FACE ( 'NONE', ( #40, #147 ), #74, .T. ) ;
#252 = AXIS2_PLACEMENT_3D ( 'NONE', #56, #16, #221 ) ;
#253 = VERTEX_POINT ( 'NONE', #269 ) ;
#254 = EDGE_CURVE ( 'NONE', #275, #275, #219, .T. ) ;
#255 = DIRECTION ( 'NONE',  ( -1.000000000000000000, 0.0000000000000000000, 0.0000000000000000000 ) ) ;
#256 = LOCAL_TIME ( 13, 35, 54.00000000000000000, #44 ) ;
#257 = CC_DESIGN_APPROVAL ( #133, ( #42 ) ) ;
#258 = PERSON_AND_ORGANIZATION_ROLE ( 'creator' ) ;
#259 = DIRECTION ( 'NONE',  ( -0.0000000000000000000, -0.0000000000000000000, -1.000000000000000000 ) ) ;
#260 = CIRCLE ( 'NONE', #32, 3.750000000000000900 ) ;
#261 = CARTESIAN_POINT ( 'NONE',  ( 0.0000000000000000000, 5.850000000000001400, -21.10999999999999900 ) ) ;
#262 = EDGE_CURVE ( 'NONE', #35, #35, #119, .T. ) ;
#263 =( LENGTH_UNIT ( ) NAMED_UNIT ( * ) SI_UNIT ( .MILLI., .METRE. ) );
#264 = EDGE_LOOP ( 'NONE', ( #8 ) ) ;
#265 = AXIS2_PLACEMENT_3D ( 'NONE', #231, #245, #25 ) ;
#266 = ADVANCED_FACE ( 'NONE', ( #267, #268 ), #184, .T. ) ;
#267 = FACE_OUTER_BOUND ( 'NONE', #45, .T. ) ;
#268 = FACE_OUTER_BOUND ( 'NONE', #60, .T. ) ;
#269 = CARTESIAN_POINT ( 'NONE',  ( -4.450000000000000200, 0.0000000000000000000, -10.94999999999999900 ) ) ;
#270 = DATE_AND_TIME ( #82, #28 ) ;
#271 = DIRECTION ( 'NONE',  ( -1.000000000000000000, 0.0000000000000000000, 0.0000000000000000000 ) ) ;
#272 = DIRECTION ( 'NONE',  ( 0.0000000000000000000, 0.0000000000000000000, 1.000000000000000000 ) ) ;
#273 = CARTESIAN_POINT ( 'NONE',  ( -3.750000000000000900, 0.0000000000000000000, -7.799999999999999800 ) ) ;
#274 = PERSON_AND_ORGANIZATION ( #127, #43 ) ;
#275 = VERTEX_POINT ( 'NONE', #273 ) ;
#276 = ORIENTED_EDGE ( 'NONE', *, *, #215, .F. ) ;
#277 = ADVANCED_FACE ( 'NONE', ( #172, #115 ), #48, .T. ) ;
#278 = APPROVAL ( #4, 'UNSPECIFIED' ) ;
#279 = CALENDAR_DATE ( 2019, 28, 3 ) ;
#280 = ORIENTED_EDGE ( 'NONE', *, *, #13, .T. ) ;
#281 = FACE_OUTER_BOUND ( 'NONE', #239, .T. ) ;
#282 = CARTESIAN_POINT ( 'NONE',  ( -5.850000000000001400, 0.0000000000000000000, -127.0000000000000000 ) ) ;
#283 = ADVANCED_FACE ( 'NONE', ( #224, #3 ), #89, .T. ) ;
#284 = ORIENTED_EDGE ( 'NONE', *, *, #254, .F. ) ;
#285 = FACE_OUTER_BOUND ( 'NONE', #69, .T. ) ;
#286 = DIRECTION ( 'NONE',  ( -0.0000000000000000000, -0.0000000000000000000, -1.000000000000000000 ) ) ;
#287 = ADVANCED_FACE ( 'NONE', ( #86, #246 ), #194, .T. ) ;
#288 = PLANE ( 'NONE',  #167 ) ;
#289 = DIRECTION ( 'NONE',  ( 1.000000000000000000, 0.0000000000000000000, -0.0000000000000000000 ) ) ;
#290 = AXIS2_PLACEMENT_3D ( 'NONE', #101, #195, #148 ) ;
#291 = CARTESIAN_POINT ( 'NONE',  ( 0.0000000000000000000, 0.0000000000000000000, 0.0000000000000000000 ) ) ;
#292 = DATE_AND_TIME ( #202, #256 ) ;
#293 = CARTESIAN_POINT ( 'NONE',  ( 0.0000000000000000000, 4.450000000000000200, -10.94999999999999900 ) ) ;
#294 = DIRECTION ( 'NONE',  ( -1.000000000000000000, 0.0000000000000000000, 0.0000000000000000000 ) ) ;
#295 = DIRECTION ( 'NONE',  ( -0.0000000000000000000, -0.0000000000000000000, -1.000000000000000000 ) ) ;
ENDSEC;
END-ISO-10303-21;
