ISO-10303-21;
HEADER;
FILE_DESCRIPTION (( 'STEP AP203' ),
    '1' );
FILE_NAME ('5720 LIQUID LIGHTGUIDE, OUTPUT END.STEP',
    '2020-12-28T15:26:31',
    ( '' ),
    ( '' ),
    'SwSTEP 2.0',
    'SolidWorks 2019',
    '' );
FILE_SCHEMA (( 'CONFIG_CONTROL_DESIGN' ));
ENDSEC;

DATA;
#1 = DIRECTION ( 'NONE',  ( 0.0000000000000000000, 0.0000000000000000000, 1.000000000000000000 ) ) ;
#2 = CALENDAR_DATE ( 2020, 28, 12 ) ;
#3 = AXIS2_PLACEMENT_3D ( 'NONE', #50, #1, #118 ) ;
#4 = PRODUCT_DEFINITION_FORMATION_WITH_SPECIFIED_SOURCE ( 'ANY', '', #88, .NOT_KNOWN. ) ;
#5 = FACE_BOUND ( 'NONE', #178, .T. ) ;
#6 = CARTESIAN_POINT ( 'NONE',  ( 0.0000000000000000000, 0.0000000000000000000, 38.59291338582676900 ) ) ;
#7 = ADVANCED_FACE ( 'NONE', ( #8 ), #60, .F. ) ;
#8 = FACE_OUTER_BOUND ( 'NONE', #57, .T. ) ;
#9 = ORGANIZATION ( 'UNSPECIFIED', 'UNSPECIFIED', '' ) ;
#10 = AXIS2_PLACEMENT_3D ( 'NONE', #6, #191, #107 ) ;
#11 = ORIENTED_EDGE ( 'NONE', *, *, #93, .T. ) ;
#12 = VERTEX_POINT ( 'NONE', #28 ) ;
#13 = DIRECTION ( 'NONE',  ( -0.0000000000000000000, -0.0000000000000000000, -1.000000000000000000 ) ) ;
#14 = VERTEX_POINT ( 'NONE', #147 ) ;
#15 = SECURITY_CLASSIFICATION ( '', '', #113 ) ;
#16 =( NAMED_UNIT ( * ) PLANE_ANGLE_UNIT ( ) SI_UNIT ( $, .RADIAN. ) );
#17 = APPROVAL_ROLE ( '' ) ;
#18 = CC_DESIGN_PERSON_AND_ORGANIZATION_ASSIGNMENT ( #82, #66, ( #4 ) ) ;
#19 = CALENDAR_DATE ( 2020, 28, 12 ) ;
#20 = AXIS2_PLACEMENT_3D ( 'NONE', #127, #25, #196 ) ;
#21 = DIRECTION ( 'NONE',  ( 0.0000000000000000000, 0.0000000000000000000, 1.000000000000000000 ) ) ;
#22 = CARTESIAN_POINT ( 'NONE',  ( 0.0000000000000000000, 0.0000000000000000000, 39.37991338582676804 ) ) ;
#23 = ORIENTED_EDGE ( 'NONE', *, *, #187, .F. ) ;
#24 = ORIENTED_EDGE ( 'NONE', *, *, #168, .T. ) ;
#25 = DIRECTION ( 'NONE',  ( -0.0000000000000000000, -0.0000000000000000000, -1.000000000000000000 ) ) ;
#26 = CARTESIAN_POINT ( 'NONE',  ( 0.1970000000000000084, 0.0000000000000000000, 38.59291338582676900 ) ) ;
#27 = ADVANCED_FACE ( 'NONE', ( #112, #167 ), #197, .T. ) ;
#28 = CARTESIAN_POINT ( 'NONE',  ( 0.1375000000000000111, 0.0000000000000000000, 38.59291338582676900 ) ) ;
#29 = APPROVAL_STATUS ( 'not_yet_approved' ) ;
#30 = APPROVAL_PERSON_ORGANIZATION ( #102, #75, #156 ) ;
#31 = CC_DESIGN_DATE_AND_TIME_ASSIGNMENT ( #61, #115, ( #203 ) ) ;
#32 = DATE_AND_TIME ( #172, #185 ) ;
#33 = AXIS2_PLACEMENT_3D ( 'NONE', #209, #121, #38 ) ;
#34 = APPROVAL_ROLE ( '' ) ;
#35 = PRODUCT_DEFINITION_SHAPE ( 'NONE', 'NONE',  #203 ) ;
#36 = AXIS2_PLACEMENT_3D ( 'NONE', #90, #73, #160 ) ;
#37 = DIRECTION ( 'NONE',  ( 1.000000000000000000, 0.0000000000000000000, -0.0000000000000000000 ) ) ;
#38 = DIRECTION ( 'NONE',  ( 1.000000000000000000, 0.0000000000000000000, 0.0000000000000000000 ) ) ;
#39 = ORIENTED_EDGE ( 'NONE', *, *, #210, .T. ) ;
#40 = VERTEX_POINT ( 'NONE', #26 ) ;
#41 = APPROVAL ( #29, 'UNSPECIFIED' ) ;
#42 = CARTESIAN_POINT ( 'NONE',  ( 0.0000000000000000000, 0.0000000000000000000, 39.37991338582676804 ) ) ;
#43 = APPROVAL_DATE_TIME ( #32, #41 ) ;
#44 = FACE_OUTER_BOUND ( 'NONE', #177, .T. ) ;
#45 = COORDINATED_UNIVERSAL_TIME_OFFSET ( 5, 0, .BEHIND. ) ;
#46 = ADVANCED_FACE ( 'NONE', ( #80, #146 ), #149, .T. ) ;
#47 = PERSON_AND_ORGANIZATION_ROLE ( 'creator' ) ;
#48 = ORIENTED_EDGE ( 'NONE', *, *, #87, .T. ) ;
#49 = APPLICATION_PROTOCOL_DEFINITION ( 'international standard', 'config_control_design', 1994, #202 ) ;
#50 = CARTESIAN_POINT ( 'NONE',  ( 0.0000000000000000000, 0.0000000000000000000, 0.0000000000000000000 ) ) ;
#51 = LOCAL_TIME ( 10, 26, 31.00000000000000000, #184 ) ;
#52 = APPROVAL ( #198, 'UNSPECIFIED' ) ;
#53 = FACE_OUTER_BOUND ( 'NONE', #133, .T. ) ;
#54 = DIRECTION ( 'NONE',  ( 1.000000000000000000, 0.0000000000000000000, -0.0000000000000000000 ) ) ;
#55 = CC_DESIGN_SECURITY_CLASSIFICATION ( #15, ( #4 ) ) ;
#56 = CIRCLE ( 'NONE', #164, 0.1870000000000000551 ) ;
#57 = EDGE_LOOP ( 'NONE', ( #23 ) ) ;
#58 = EDGE_LOOP ( 'NONE', ( #194 ) ) ;
#59 = DIRECTION ( 'NONE',  ( -0.0000000000000000000, -0.0000000000000000000, -1.000000000000000000 ) ) ;
#60 = PLANE ( 'NONE',  #77 ) ;
#61 = DATE_AND_TIME ( #200, #143 ) ;
#62 = FACE_OUTER_BOUND ( 'NONE', #195, .T. ) ;
#63 = DESIGN_CONTEXT ( 'detailed design', #202, 'design' ) ;
#64 = APPROVAL_DATE_TIME ( #100, #52 ) ;
#65 = DIMENSIONAL_EXPONENTS ( 1.000000000000000000, 0.0000000000000000000, 0.0000000000000000000, 0.0000000000000000000, 0.0000000000000000000, 0.0000000000000000000, 0.0000000000000000000 ) ;
#66 = PERSON_AND_ORGANIZATION_ROLE ( 'design_supplier' ) ;
#67 = ORIENTED_EDGE ( 'NONE', *, *, #210, .F. ) ;
#68 = UNCERTAINTY_MEASURE_WITH_UNIT (LENGTH_MEASURE( 1.000000000000000082E-05 ), #101, 'distance_accuracy_value', 'NONE');
#69 = DATE_TIME_ROLE ( 'classification_date' ) ;
#70 = CIRCLE ( 'NONE', #136, 0.1970000000000000084 ) ;
#71 = CIRCLE ( 'NONE', #36, 0.1375000000000000111 ) ;
#72 = PLANE ( 'NONE',  #10 ) ;
#73 = DIRECTION ( 'NONE',  ( 0.0000000000000000000, 0.0000000000000000000, 1.000000000000000000 ) ) ;
#74 = ORIENTED_EDGE ( 'NONE', *, *, #168, .F. ) ;
#75 = APPROVAL ( #86, 'UNSPECIFIED' ) ;
#76 = CC_DESIGN_APPROVAL ( #41, ( #4 ) ) ;
#77 = AXIS2_PLACEMENT_3D ( 'NONE', #151, #129, #97 ) ;
#78 = EDGE_LOOP ( 'NONE', ( #109 ) ) ;
#79 = DIRECTION ( 'NONE',  ( 1.000000000000000000, 0.0000000000000000000, 0.0000000000000000000 ) ) ;
#80 = FACE_OUTER_BOUND ( 'NONE', #58, .T. ) ;
#81 = CARTESIAN_POINT ( 'NONE',  ( 0.0000000000000000000, 0.0000000000000000000, 37.48291338582573218 ) ) ;
#82 = PERSON_AND_ORGANIZATION ( #103, #9 ) ;
#83 =( NAMED_UNIT ( * ) SI_UNIT ( $, .STERADIAN. ) SOLID_ANGLE_UNIT ( ) );
#84 = PERSON_AND_ORGANIZATION_ROLE ( 'classification_officer' ) ;
#85 = PERSON_AND_ORGANIZATION_ROLE ( 'design_owner' ) ;
#86 = APPROVAL_STATUS ( 'not_yet_approved' ) ;
#87 = EDGE_CURVE ( 'NONE', #40, #40, #125, .T. ) ;
#88 = PRODUCT ( '5720 LIQUID LIGHTGUIDE, OUTPUT END', '5720 LIQUID LIGHTGUIDE, OUTPUT END', '', ( #154 ) ) ;
#89 = APPROVAL_PERSON_ORGANIZATION ( #99, #41, #17 ) ;
#90 = CARTESIAN_POINT ( 'NONE',  ( 0.0000000000000000000, 0.0000000000000000000, 38.59291338582676900 ) ) ;
#91 = CARTESIAN_POINT ( 'NONE',  ( 0.0000000000000000000, 0.0000000000000000000, 39.37991338582676804 ) ) ;
#92 = ORIENTED_EDGE ( 'NONE', *, *, #182, .F. ) ;
#93 = EDGE_CURVE ( 'NONE', #95, #95, #116, .T. ) ;
#94 = EDGE_LOOP ( 'NONE', ( #67 ) ) ;
#95 = VERTEX_POINT ( 'NONE', #181 ) ;
#96 = DIRECTION ( 'NONE',  ( -1.000000000000000000, 0.0000000000000000000, 0.0000000000000000000 ) ) ;
#97 = DIRECTION ( 'NONE',  ( 1.000000000000000000, 0.0000000000000000000, -0.0000000000000000000 ) ) ;
#98 = COORDINATED_UNIVERSAL_TIME_OFFSET ( 5, 0, .BEHIND. ) ;
#99 = PERSON_AND_ORGANIZATION ( #103, #9 ) ;
#100 = DATE_AND_TIME ( #217, #211 ) ;
#101 =( CONVERSION_BASED_UNIT ( 'INCH', #204 ) LENGTH_UNIT ( ) NAMED_UNIT ( #65 ) );
#102 = PERSON_AND_ORGANIZATION ( #103, #9 ) ;
#103 = PERSON ( 'UNSPECIFIED', 'UNSPECIFIED', 'UNSPECIFIED', ('UNSPECIFIED'), ('UNSPECIFIED'), ('UNSPECIFIED') ) ;
#104 =( GEOMETRIC_REPRESENTATION_CONTEXT ( 3 ) GLOBAL_UNCERTAINTY_ASSIGNED_CONTEXT ( ( #68 ) ) GLOBAL_UNIT_ASSIGNED_CONTEXT ( ( #101, #16, #83 ) ) REPRESENTATION_CONTEXT ( 'NONE', 'WORKASPACE' ) );
#105 = AXIS2_PLACEMENT_3D ( 'NONE', #122, #206, #140 ) ;
#106 = DIRECTION ( 'NONE',  ( 0.0000000000000000000, 0.0000000000000000000, 1.000000000000000000 ) ) ;
#107 = DIRECTION ( 'NONE',  ( 1.000000000000000000, 0.0000000000000000000, -0.0000000000000000000 ) ) ;
#108 = CC_DESIGN_PERSON_AND_ORGANIZATION_ASSIGNMENT ( #171, #47, ( #203 ) ) ;
#109 = ORIENTED_EDGE ( 'NONE', *, *, #182, .T. ) ;
#110 = CARTESIAN_POINT ( 'NONE',  ( 0.1375000000000000111, 0.0000000000000000000, 39.37991338582676804 ) ) ;
#111 =( LENGTH_UNIT ( ) NAMED_UNIT ( * ) SI_UNIT ( $, .METRE. ) );
#112 = FACE_OUTER_BOUND ( 'NONE', #126, .T. ) ;
#113 = SECURITY_CLASSIFICATION_LEVEL ( 'unclassified' ) ;
#114 = COORDINATED_UNIVERSAL_TIME_OFFSET ( 5, 0, .BEHIND. ) ;
#115 = DATE_TIME_ROLE ( 'creation_date' ) ;
#116 = CIRCLE ( 'NONE', #105, 0.1870000000000000551 ) ;
#117 = PERSON_AND_ORGANIZATION ( #103, #9 ) ;
#118 = DIRECTION ( 'NONE',  ( 1.000000000000000000, 0.0000000000000000000, 0.0000000000000000000 ) ) ;
#119 = CC_DESIGN_APPROVAL ( #52, ( #203 ) ) ;
#120 = PLANE ( 'NONE',  #189 ) ;
#121 = DIRECTION ( 'NONE',  ( 0.0000000000000000000, 0.0000000000000000000, 1.000000000000000000 ) ) ;
#122 = CARTESIAN_POINT ( 'NONE',  ( 0.0000000000000000000, 0.0000000000000000000, 37.64291338582677326 ) ) ;
#123 = ADVANCED_FACE ( 'NONE', ( #161, #5 ), #72, .T. ) ;
#124 = AXIS2_PLACEMENT_3D ( 'NONE', #216, #59, #96 ) ;
#125 = CIRCLE ( 'NONE', #33, 0.1970000000000000084 ) ;
#126 = EDGE_LOOP ( 'NONE', ( #74 ) ) ;
#127 = CARTESIAN_POINT ( 'NONE',  ( 0.0000000000000000000, 0.0000000000000000000, 38.59291338582676900 ) ) ;
#128 = CARTESIAN_POINT ( 'NONE',  ( 0.1970000000000000084, 0.0000000000000000000, 37.64291338582677326 ) ) ;
#129 = DIRECTION ( 'NONE',  ( 0.0000000000000000000, 0.0000000000000000000, 1.000000000000000000 ) ) ;
#130 = PERSON_AND_ORGANIZATION ( #103, #9 ) ;
#131 = CARTESIAN_POINT ( 'NONE',  ( 0.0000000000000000000, 0.0000000000000000000, 37.64291338582677326 ) ) ;
#132 = PERSON_AND_ORGANIZATION_ROLE ( 'creator' ) ;
#133 = EDGE_LOOP ( 'NONE', ( #24 ) ) ;
#134 = CC_DESIGN_PERSON_AND_ORGANIZATION_ASSIGNMENT ( #186, #132, ( #4 ) ) ;
#135 = COORDINATED_UNIVERSAL_TIME_OFFSET ( 5, 0, .BEHIND. ) ;
#136 = AXIS2_PLACEMENT_3D ( 'NONE', #131, #180, #166 ) ;
#137 = AXIS2_PLACEMENT_3D ( 'NONE', #159, #176, #54 ) ;
#138 = PERSON_AND_ORGANIZATION ( #103, #9 ) ;
#139 = PLANE ( 'NONE',  #137 ) ;
#140 = DIRECTION ( 'NONE',  ( 1.000000000000000000, 0.0000000000000000000, 0.0000000000000000000 ) ) ;
#141 = ADVANCED_FACE ( 'NONE', ( #190, #208 ), #139, .F. ) ;
#142 = ADVANCED_BREP_SHAPE_REPRESENTATION ( '5720 LIQUID LIGHTGUIDE, OUTPUT END', ( #205, #3 ), #104 ) ;
#143 = LOCAL_TIME ( 10, 26, 31.00000000000000000, #98 ) ;
#144 = ORIENTED_EDGE ( 'NONE', *, *, #187, .T. ) ;
#145 = APPLICATION_CONTEXT ( 'configuration controlled 3d designs of mechanical parts and assemblies' ) ;
#146 = FACE_OUTER_BOUND ( 'NONE', #212, .T. ) ;
#147 = CARTESIAN_POINT ( 'NONE',  ( 0.1870000000000000551, 0.0000000000000000000, 37.48291338582573218 ) ) ;
#148 = ADVANCED_FACE ( 'NONE', ( #53 ), #120, .T. ) ;
#149 = CYLINDRICAL_SURFACE ( 'NONE', #20, 0.1970000000000000084 ) ;
#150 = CYLINDRICAL_SURFACE ( 'NONE', #124, 0.1870000000000000551 ) ;
#151 = CARTESIAN_POINT ( 'NONE',  ( 5.930323930749654693, -0.3157976762964668227, 37.48291338582573218 ) ) ;
#152 = EDGE_LOOP ( 'NONE', ( #48 ) ) ;
#153 = CC_DESIGN_PERSON_AND_ORGANIZATION_ASSIGNMENT ( #117, #85, ( #88 ) ) ;
#154 = MECHANICAL_CONTEXT ( 'NONE', #145, 'mechanical' ) ;
#155 = APPROVAL_DATE_TIME ( #214, #75 ) ;
#156 = APPROVAL_ROLE ( '' ) ;
#157 = AXIS2_PLACEMENT_3D ( 'NONE', #22, #106, #174 ) ;
#158 = CC_DESIGN_DATE_AND_TIME_ASSIGNMENT ( #183, #69, ( #15 ) ) ;
#159 = CARTESIAN_POINT ( 'NONE',  ( 0.0000000000000000000, 0.0000000000000000000, 37.64291338582677326 ) ) ;
#160 = DIRECTION ( 'NONE',  ( 1.000000000000000000, 0.0000000000000000000, 0.0000000000000000000 ) ) ;
#161 = FACE_OUTER_BOUND ( 'NONE', #152, .T. ) ;
#162 = ORIENTED_EDGE ( 'NONE', *, *, #93, .F. ) ;
#163 = EDGE_LOOP ( 'NONE', ( #11 ) ) ;
#164 = AXIS2_PLACEMENT_3D ( 'NONE', #81, #199, #79 ) ;
#165 = VERTEX_POINT ( 'NONE', #110 ) ;
#166 = DIRECTION ( 'NONE',  ( 1.000000000000000000, 0.0000000000000000000, 0.0000000000000000000 ) ) ;
#167 = FACE_OUTER_BOUND ( 'NONE', #78, .T. ) ;
#168 = EDGE_CURVE ( 'NONE', #165, #165, #192, .T. ) ;
#169 = SHAPE_DEFINITION_REPRESENTATION ( #35, #142 ) ;
#170 = APPLICATION_PROTOCOL_DEFINITION ( 'international standard', 'config_control_design', 1994, #145 ) ;
#171 = PERSON_AND_ORGANIZATION ( #103, #9 ) ;
#172 = CALENDAR_DATE ( 2020, 28, 12 ) ;
#173 = CLOSED_SHELL ( 'NONE', ( #123, #207, #141, #46, #27, #148, #7 ) ) ;
#174 = DIRECTION ( 'NONE',  ( 1.000000000000000000, 0.0000000000000000000, 0.0000000000000000000 ) ) ;
#175 = CC_DESIGN_APPROVAL ( #75, ( #15 ) ) ;
#176 = DIRECTION ( 'NONE',  ( 0.0000000000000000000, 0.0000000000000000000, 1.000000000000000000 ) ) ;
#177 = EDGE_LOOP ( 'NONE', ( #144 ) ) ;
#178 = EDGE_LOOP ( 'NONE', ( #92 ) ) ;
#179 = DIRECTION ( 'NONE',  ( -1.000000000000000000, 0.0000000000000000000, 0.0000000000000000000 ) ) ;
#180 = DIRECTION ( 'NONE',  ( 0.0000000000000000000, 0.0000000000000000000, 1.000000000000000000 ) ) ;
#181 = CARTESIAN_POINT ( 'NONE',  ( 0.1870000000000000551, 0.0000000000000000000, 37.64291338582677326 ) ) ;
#182 = EDGE_CURVE ( 'NONE', #12, #12, #71, .T. ) ;
#183 = DATE_AND_TIME ( #19, #215 ) ;
#184 = COORDINATED_UNIVERSAL_TIME_OFFSET ( 5, 0, .BEHIND. ) ;
#185 = LOCAL_TIME ( 10, 26, 31.00000000000000000, #135 ) ;
#186 = PERSON_AND_ORGANIZATION ( #103, #9 ) ;
#187 = EDGE_CURVE ( 'NONE', #14, #14, #56, .T. ) ;
#188 = APPROVAL_PERSON_ORGANIZATION ( #130, #52, #34 ) ;
#189 = AXIS2_PLACEMENT_3D ( 'NONE', #91, #21, #37 ) ;
#190 = FACE_OUTER_BOUND ( 'NONE', #94, .T. ) ;
#191 = DIRECTION ( 'NONE',  ( 0.0000000000000000000, 0.0000000000000000000, 1.000000000000000000 ) ) ;
#192 = CIRCLE ( 'NONE', #157, 0.1375000000000000111 ) ;
#193 = CC_DESIGN_PERSON_AND_ORGANIZATION_ASSIGNMENT ( #138, #84, ( #15 ) ) ;
#194 = ORIENTED_EDGE ( 'NONE', *, *, #87, .F. ) ;
#195 = EDGE_LOOP ( 'NONE', ( #162 ) ) ;
#196 = DIRECTION ( 'NONE',  ( -1.000000000000000000, 0.0000000000000000000, 0.0000000000000000000 ) ) ;
#197 = CYLINDRICAL_SURFACE ( 'NONE', #201, 0.1375000000000000111 ) ;
#198 = APPROVAL_STATUS ( 'not_yet_approved' ) ;
#199 = DIRECTION ( 'NONE',  ( 0.0000000000000000000, 0.0000000000000000000, 1.000000000000000000 ) ) ;
#200 = CALENDAR_DATE ( 2020, 28, 12 ) ;
#201 = AXIS2_PLACEMENT_3D ( 'NONE', #42, #13, #179 ) ;
#202 = APPLICATION_CONTEXT ( 'configuration controlled 3d designs of mechanical parts and assemblies' ) ;
#203 = PRODUCT_DEFINITION ( 'UNKNOWN', '', #4, #63 ) ;
#204 = LENGTH_MEASURE_WITH_UNIT ( LENGTH_MEASURE( 0.02539999999999999897 ), #111 );
#205 = MANIFOLD_SOLID_BREP ( 'Cut-Extrude1', #173 ) ;
#206 = DIRECTION ( 'NONE',  ( 0.0000000000000000000, 0.0000000000000000000, 1.000000000000000000 ) ) ;
#207 = ADVANCED_FACE ( 'NONE', ( #44, #62 ), #150, .T. ) ;
#208 = FACE_BOUND ( 'NONE', #163, .T. ) ;
#209 = CARTESIAN_POINT ( 'NONE',  ( 0.0000000000000000000, 0.0000000000000000000, 38.59291338582676900 ) ) ;
#210 = EDGE_CURVE ( 'NONE', #213, #213, #70, .T. ) ;
#211 = LOCAL_TIME ( 10, 26, 31.00000000000000000, #45 ) ;
#212 = EDGE_LOOP ( 'NONE', ( #39 ) ) ;
#213 = VERTEX_POINT ( 'NONE', #128 ) ;
#214 = DATE_AND_TIME ( #2, #51 ) ;
#215 = LOCAL_TIME ( 10, 26, 31.00000000000000000, #114 ) ;
#216 = CARTESIAN_POINT ( 'NONE',  ( 0.0000000000000000000, 0.0000000000000000000, 75.81474264398107721 ) ) ;
#217 = CALENDAR_DATE ( 2020, 28, 12 ) ;
#218 = PRODUCT_RELATED_PRODUCT_CATEGORY ( 'detail', '', ( #88 ) ) ;
ENDSEC;
END-ISO-10303-21;
